ISO-10303-21;
HEADER;
/****************************************************************
 * Generated by software with PDE/Lib inside                    *
 * PDE/Lib Version 3.2.6, created Mon Nov 19, 2001 at 18:43:38  *
 * International Technegroup Inc. (www.iti-oh.com)              *
 ****************************************************************/
FILE_DESCRIPTION((''),'2;1');
FILE_NAME('D:\\1@Bauteilegenerierung\\050422 Serie 423\\nonIParts\\STP\\02-0055-001.stp','2005-04-22T09:45:52',('generator'),(''),'Autodesk Inventor 7','Autodesk Inventor 7','');
FILE_SCHEMA(('AUTOMOTIVE_DESIGN { 1 0 10303 214 1 1 1 1 }'));
ENDSEC;
DATA;
#5=APPLICATION_CONTEXT('automotive design');
#6=APPLICATION_PROTOCOL_DEFINITION('Draft International Standard','automotive_design',1998,#5);
#7=PRODUCT_CONTEXT('None',#5,'mechanical');
#8=PRODUCT('02-0055-001','02-0055-001','None',(#7));
#9=PRODUCT_RELATED_PRODUCT_CATEGORY('part','description',(#8));
#10=PRODUCT_DEFINITION_FORMATION('None','None',#8);
#11=PRODUCT_DEFINITION_CONTEXT('part definition',#5,'design');
#12=PRODUCT_DEFINITION('None','None',#10,#11);
#18=(NAMED_UNIT(*)PLANE_ANGLE_UNIT()SI_UNIT($,.RADIAN.));
#19=DIMENSIONAL_EXPONENTS(0.0,0.0,0.0,0.0,0.0,0.0,0.0);
#20=PLANE_ANGLE_MEASURE_WITH_UNIT(PLANE_ANGLE_MEASURE(0.017453292500000),#18);
#24=(CONVERSION_BASED_UNIT('DEGREE',#20)NAMED_UNIT(#19)PLANE_ANGLE_UNIT());
#28=(NAMED_UNIT(*)SI_UNIT($,.STERADIAN.)SOLID_ANGLE_UNIT());
#32=(LENGTH_UNIT()NAMED_UNIT(*)SI_UNIT(.MILLI.,.METRE.));
#34=UNCERTAINTY_MEASURE_WITH_UNIT(LENGTH_MEASURE(0.000001000000000),#32,'DISTANCE_ACCURACY_VALUE','');
#36=(GEOMETRIC_REPRESENTATION_CONTEXT(3)GLOBAL_UNCERTAINTY_ASSIGNED_CONTEXT((#34))GLOBAL_UNIT_ASSIGNED_CONTEXT((#24,#28,#32))REPRESENTATION_CONTEXT('None','None'));
#37=AXIS2_PLACEMENT_3D('',#38,#39,#40);
#38=CARTESIAN_POINT('',(0.0,0.0,0.0));
#39=DIRECTION('',(0.0,0.0,1.0));
#40=DIRECTION('',(1.0,0.0,0.0));
#41=SHAPE_REPRESENTATION('',(#37),#36);
#42=PRODUCT_DEFINITION_SHAPE('','',#12);
#43=SHAPE_DEFINITION_REPRESENTATION(#42,#41);
#44=CARTESIAN_POINT('',(-2.700000000000001,0.0,0.0));
#45=DIRECTION('',(-1.0,0.0,0.0));
#46=DIRECTION('',(0.0,0.0,1.0));
#47=AXIS2_PLACEMENT_3D('',#44,#45,#46);
#48=TOROIDAL_SURFACE('',#47,9.299999999999999,0.700000000000000);
#49=CARTESIAN_POINT('',(-2.700000000000001,0.0,10.0));
#50=VERTEX_POINT('',#49);
#51=CARTESIAN_POINT('',(-3.400000000000002,0.0,9.299999999999999));
#52=VERTEX_POINT('',#51);
#53=CARTESIAN_POINT('',(-2.700000000000001,-1.138884E-015,9.299999999999999));
#54=DIRECTION('',(0.0,-1.0,0.0));
#55=DIRECTION('',(0.0,0.0,1.0));
#56=AXIS2_PLACEMENT_3D('',#53,#54,#55);
#57=CIRCLE('',#56,0.700000000000000);
#58=EDGE_CURVE('',#50,#52,#57,.T.);
#59=ORIENTED_EDGE('',*,*,#58,.F.);
#60=CARTESIAN_POINT('',(-2.700000000000001,1.224606E-015,-10.0));
#61=VERTEX_POINT('',#60);
#62=CARTESIAN_POINT('',(-2.700000000000001,0.0,0.0));
#63=DIRECTION('',(-1.0,0.0,0.0));
#64=DIRECTION('',(0.0,0.0,1.0));
#65=AXIS2_PLACEMENT_3D('',#62,#63,#64);
#66=CIRCLE('',#65,10.0);
#67=EDGE_CURVE('',#50,#61,#66,.T.);
#68=ORIENTED_EDGE('',*,*,#67,.T.);
#69=CARTESIAN_POINT('',(-3.400000000000002,1.138884E-015,-9.299999999999999));
#70=VERTEX_POINT('',#69);
#71=CARTESIAN_POINT('',(-2.700000000000001,1.138884E-015,-9.299999999999999));
#72=DIRECTION('',(0.0,-1.0,0.0));
#73=DIRECTION('',(0.0,0.0,-1.0));
#74=AXIS2_PLACEMENT_3D('',#71,#72,#73);
#75=CIRCLE('',#74,0.700000000000000);
#76=EDGE_CURVE('',#70,#61,#75,.T.);
#77=ORIENTED_EDGE('',*,*,#76,.F.);
#78=CARTESIAN_POINT('',(-3.400000000000002,0.0,0.0));
#79=DIRECTION('',(-1.0,0.0,0.0));
#80=DIRECTION('',(0.0,0.0,1.0));
#81=AXIS2_PLACEMENT_3D('',#78,#79,#80);
#82=CIRCLE('',#81,9.299999999999999);
#83=EDGE_CURVE('',#52,#70,#82,.T.);
#84=ORIENTED_EDGE('',*,*,#83,.F.);
#85=EDGE_LOOP('',(#59,#68,#77,#84));
#86=FACE_OUTER_BOUND('',#85,.T.);
#87=ADVANCED_FACE('',(#86),#48,.T.);
#88=CARTESIAN_POINT('',(-2.400000000000001,0.0,0.0));
#89=DIRECTION('',(-1.0,0.0,0.0));
#90=DIRECTION('',(0.0,0.0,1.0));
#91=AXIS2_PLACEMENT_3D('',#88,#89,#90);
#92=CYLINDRICAL_SURFACE('',#91,9.999999999999998);
#93=CARTESIAN_POINT('',(-2.100000000000001,0.0,9.999999999999998));
#94=VERTEX_POINT('',#93);
#95=CARTESIAN_POINT('',(-2.100000000000001,0.0,9.999999999999998));
#96=DIRECTION('',(-1.0,0.0,0.0));
#97=VECTOR('',#96,0.600000000000001);
#98=LINE('',#95,#97);
#99=EDGE_CURVE('',#94,#50,#98,.T.);
#100=ORIENTED_EDGE('',*,*,#99,.F.);
#101=CARTESIAN_POINT('',(-2.100000000000001,1.224606E-015,-9.999999999999998));
#102=VERTEX_POINT('',#101);
#103=CARTESIAN_POINT('',(-2.100000000000001,0.0,0.0));
#104=DIRECTION('',(-1.0,0.0,0.0));
#105=DIRECTION('',(0.0,0.0,1.0));
#106=AXIS2_PLACEMENT_3D('',#103,#104,#105);
#107=CIRCLE('',#106,9.999999999999998);
#108=EDGE_CURVE('',#94,#102,#107,.T.);
#109=ORIENTED_EDGE('',*,*,#108,.T.);
#110=CARTESIAN_POINT('',(-2.700000000000001,1.224606E-015,-10.0));
#111=DIRECTION('',(1.0,0.0,0.0));
#112=VECTOR('',#111,0.600000000000001);
#113=LINE('',#110,#112);
#114=EDGE_CURVE('',#61,#102,#113,.T.);
#115=ORIENTED_EDGE('',*,*,#114,.F.);
#116=ORIENTED_EDGE('',*,*,#67,.F.);
#117=EDGE_LOOP('',(#100,#109,#115,#116));
#118=FACE_OUTER_BOUND('',#117,.T.);
#119=ADVANCED_FACE('',(#118),#92,.T.);
#120=CARTESIAN_POINT('',(-1.169175359259422,0.0,0.0));
#121=DIRECTION('',(-1.0,0.0,0.0));
#122=DIRECTION('',(0.0,0.0,1.0));
#123=AXIS2_PLACEMENT_3D('',#120,#121,#122);
#124=CYLINDRICAL_SURFACE('',#123,8.199999999999999);
#125=CARTESIAN_POINT('',(-0.238350718518843,0.0,8.199999999999999));
#126=VERTEX_POINT('',#125);
#127=CARTESIAN_POINT('',(-2.100000000000001,0.0,8.199999999999999));
#128=VERTEX_POINT('',#127);
#129=CARTESIAN_POINT('',(-0.238350718518843,0.0,8.199999999999999));
#130=DIRECTION('',(-1.0,0.0,0.0));
#131=VECTOR('',#130,1.861649281481158);
#132=LINE('',#129,#131);
#133=EDGE_CURVE('',#126,#128,#132,.T.);
#134=ORIENTED_EDGE('',*,*,#133,.F.);
#135=CARTESIAN_POINT('',(-0.238350718518843,1.004177E-015,-8.199999999999999));
#136=VERTEX_POINT('',#135);
#137=CARTESIAN_POINT('',(-0.238350718518843,0.0,0.0));
#138=DIRECTION('',(-1.0,0.0,0.0));
#139=DIRECTION('',(0.0,0.0,1.0));
#140=AXIS2_PLACEMENT_3D('',#137,#138,#139);
#141=CIRCLE('',#140,8.199999999999999);
#142=EDGE_CURVE('',#126,#136,#141,.T.);
#143=ORIENTED_EDGE('',*,*,#142,.T.);
#144=CARTESIAN_POINT('',(-2.100000000000001,1.004177E-015,-8.199999999999999));
#145=VERTEX_POINT('',#144);
#146=CARTESIAN_POINT('',(-2.100000000000001,1.004177E-015,-8.199999999999999));
#147=DIRECTION('',(1.0,0.0,0.0));
#148=VECTOR('',#147,1.861649281481158);
#149=LINE('',#146,#148);
#150=EDGE_CURVE('',#145,#136,#149,.T.);
#151=ORIENTED_EDGE('',*,*,#150,.F.);
#152=CARTESIAN_POINT('',(-2.100000000000001,0.0,0.0));
#153=DIRECTION('',(-1.0,0.0,0.0));
#154=DIRECTION('',(0.0,0.0,1.0));
#155=AXIS2_PLACEMENT_3D('',#152,#153,#154);
#156=CIRCLE('',#155,8.199999999999999);
#157=EDGE_CURVE('',#128,#145,#156,.T.);
#158=ORIENTED_EDGE('',*,*,#157,.F.);
#159=EDGE_LOOP('',(#134,#143,#151,#158));
#160=FACE_OUTER_BOUND('',#159,.T.);
#161=ADVANCED_FACE('',(#160),#124,.T.);
#162=CARTESIAN_POINT('',(-0.119175359259422,0.0,0.0));
#163=DIRECTION('',(1.0,0.0,0.0));
#164=DIRECTION('',(0.0,0.0,1.0));
#165=AXIS2_PLACEMENT_3D('',#162,#163,#164);
#166=CONICAL_SURFACE('',#165,8.300000000000001,40.000000000000028);
#167=CARTESIAN_POINT('',(0.0,0.0,8.400000000000000));
#168=VERTEX_POINT('',#167);
#169=CARTESIAN_POINT('',(0.0,0.0,8.400000000000000));
#170=DIRECTION('',(-0.766044443118978,0.0,-0.642787609686539));
#171=VECTOR('',#170,0.311144765372084);
#172=LINE('',#169,#171);
#173=EDGE_CURVE('',#168,#126,#172,.T.);
#174=ORIENTED_EDGE('',*,*,#173,.F.);
#175=CARTESIAN_POINT('',(0.0,1.028669E-015,-8.400000000000000));
#176=VERTEX_POINT('',#175);
#177=CARTESIAN_POINT('',(0.0,0.0,0.0));
#178=DIRECTION('',(-1.0,0.0,0.0));
#179=DIRECTION('',(0.0,0.0,1.0));
#180=AXIS2_PLACEMENT_3D('',#177,#178,#179);
#181=CIRCLE('',#180,8.400000000000000);
#182=EDGE_CURVE('',#168,#176,#181,.T.);
#183=ORIENTED_EDGE('',*,*,#182,.T.);
#184=CARTESIAN_POINT('',(-0.238350718518843,1.004177E-015,-8.199999999999999));
#185=DIRECTION('',(0.766044443118978,7.871618E-017,-0.642787609686539));
#186=VECTOR('',#185,0.311144765372084);
#187=LINE('',#184,#186);
#188=EDGE_CURVE('',#136,#176,#187,.T.);
#189=ORIENTED_EDGE('',*,*,#188,.F.);
#190=ORIENTED_EDGE('',*,*,#142,.F.);
#191=EDGE_LOOP('',(#174,#183,#189,#190));
#192=FACE_OUTER_BOUND('',#191,.T.);
#193=ADVANCED_FACE('',(#192),#166,.T.);
#194=CARTESIAN_POINT('',(0.119175359259422,0.0,0.0));
#195=DIRECTION('',(-1.0,0.0,0.0));
#196=DIRECTION('',(0.0,0.0,1.0));
#197=AXIS2_PLACEMENT_3D('',#194,#195,#196);
#198=CONICAL_SURFACE('',#197,8.300000000000001,40.000000000000028);
#199=CARTESIAN_POINT('',(0.238350718518843,0.0,8.199999999999999));
#200=VERTEX_POINT('',#199);
#201=CARTESIAN_POINT('',(0.238350718518843,0.0,8.199999999999999));
#202=DIRECTION('',(-0.766044443118978,0.0,0.642787609686539));
#203=VECTOR('',#202,0.311144765372084);
#204=LINE('',#201,#203);
#205=EDGE_CURVE('',#200,#168,#204,.T.);
#206=ORIENTED_EDGE('',*,*,#205,.F.);
#207=CARTESIAN_POINT('',(0.238350718518843,1.004177E-015,-8.199999999999999));
#208=VERTEX_POINT('',#207);
#209=CARTESIAN_POINT('',(0.238350718518843,0.0,0.0));
#210=DIRECTION('',(-1.0,0.0,0.0));
#211=DIRECTION('',(0.0,0.0,1.0));
#212=AXIS2_PLACEMENT_3D('',#209,#210,#211);
#213=CIRCLE('',#212,8.199999999999999);
#214=EDGE_CURVE('',#200,#208,#213,.T.);
#215=ORIENTED_EDGE('',*,*,#214,.T.);
#216=CARTESIAN_POINT('',(0.0,1.028669E-015,-8.400000000000000));
#217=DIRECTION('',(0.766044443118978,-7.871618E-017,0.642787609686539));
#218=VECTOR('',#217,0.311144765372084);
#219=LINE('',#216,#218);
#220=EDGE_CURVE('',#176,#208,#219,.T.);
#221=ORIENTED_EDGE('',*,*,#220,.F.);
#222=ORIENTED_EDGE('',*,*,#182,.F.);
#223=EDGE_LOOP('',(#206,#215,#221,#222));
#224=FACE_OUTER_BOUND('',#223,.T.);
#225=ADVANCED_FACE('',(#224),#198,.T.);
#226=CARTESIAN_POINT('',(1.169175359259421,0.0,0.0));
#227=DIRECTION('',(-1.0,0.0,0.0));
#228=DIRECTION('',(0.0,0.0,1.0));
#229=AXIS2_PLACEMENT_3D('',#226,#227,#228);
#230=CYLINDRICAL_SURFACE('',#229,8.199999999999999);
#231=CARTESIAN_POINT('',(2.099999999999999,0.0,8.199999999999999));
#232=VERTEX_POINT('',#231);
#233=CARTESIAN_POINT('',(2.099999999999999,0.0,8.199999999999999));
#234=DIRECTION('',(-1.0,0.0,0.0));
#235=VECTOR('',#234,1.861649281481156);
#236=LINE('',#233,#235);
#237=EDGE_CURVE('',#232,#200,#236,.T.);
#238=ORIENTED_EDGE('',*,*,#237,.F.);
#239=CARTESIAN_POINT('',(2.099999999999999,1.004177E-015,-8.199999999999999));
#240=VERTEX_POINT('',#239);
#241=CARTESIAN_POINT('',(2.099999999999999,0.0,0.0));
#242=DIRECTION('',(-1.0,0.0,0.0));
#243=DIRECTION('',(0.0,0.0,1.0));
#244=AXIS2_PLACEMENT_3D('',#241,#242,#243);
#245=CIRCLE('',#244,8.199999999999999);
#246=EDGE_CURVE('',#232,#240,#245,.T.);
#247=ORIENTED_EDGE('',*,*,#246,.T.);
#248=CARTESIAN_POINT('',(0.238350718518843,1.004177E-015,-8.199999999999999));
#249=DIRECTION('',(1.0,0.0,0.0));
#250=VECTOR('',#249,1.861649281481156);
#251=LINE('',#248,#250);
#252=EDGE_CURVE('',#208,#240,#251,.T.);
#253=ORIENTED_EDGE('',*,*,#252,.F.);
#254=ORIENTED_EDGE('',*,*,#214,.F.);
#255=EDGE_LOOP('',(#238,#247,#253,#254));
#256=FACE_OUTER_BOUND('',#255,.T.);
#257=ADVANCED_FACE('',(#256),#230,.T.);
#258=CARTESIAN_POINT('',(-2.775558E-016,0.0,0.0));
#259=DIRECTION('',(-1.0,0.0,0.0));
#260=DIRECTION('',(0.0,0.0,1.0));
#261=AXIS2_PLACEMENT_3D('',#258,#259,#260);
#262=CYLINDRICAL_SURFACE('',#261,7.500000000000000);
#263=CARTESIAN_POINT('',(2.100000000000000,0.0,7.500000000000000));
#264=VERTEX_POINT('',#263);
#265=CARTESIAN_POINT('',(-2.100000000000001,0.0,7.500000000000000));
#266=VERTEX_POINT('',#265);
#267=CARTESIAN_POINT('',(2.100000000000000,0.0,7.500000000000000));
#268=DIRECTION('',(-1.0,0.0,0.0));
#269=VECTOR('',#268,4.200000000000001);
#270=LINE('',#267,#269);
#271=EDGE_CURVE('',#264,#266,#270,.T.);
#272=ORIENTED_EDGE('',*,*,#271,.F.);
#273=CARTESIAN_POINT('',(2.100000000000000,9.184548E-016,-7.500000000000000));
#274=VERTEX_POINT('',#273);
#275=CARTESIAN_POINT('',(2.100000000000000,0.0,0.0));
#276=DIRECTION('',(-1.0,0.0,0.0));
#277=DIRECTION('',(0.0,0.0,1.0));
#278=AXIS2_PLACEMENT_3D('',#275,#276,#277);
#279=CIRCLE('',#278,7.500000000000000);
#280=EDGE_CURVE('',#274,#264,#279,.T.);
#281=ORIENTED_EDGE('',*,*,#280,.F.);
#282=CARTESIAN_POINT('',(-2.100000000000001,9.184548E-016,-7.500000000000000));
#283=VERTEX_POINT('',#282);
#284=CARTESIAN_POINT('',(-2.100000000000001,9.184548E-016,-7.500000000000000));
#285=DIRECTION('',(1.0,0.0,0.0));
#286=VECTOR('',#285,4.200000000000001);
#287=LINE('',#284,#286);
#288=EDGE_CURVE('',#283,#274,#287,.T.);
#289=ORIENTED_EDGE('',*,*,#288,.F.);
#290=CARTESIAN_POINT('',(-2.100000000000001,0.0,0.0));
#291=DIRECTION('',(-1.0,0.0,0.0));
#292=DIRECTION('',(0.0,0.0,1.0));
#293=AXIS2_PLACEMENT_3D('',#290,#291,#292);
#294=CIRCLE('',#293,7.500000000000000);
#295=EDGE_CURVE('',#283,#266,#294,.T.);
#296=ORIENTED_EDGE('',*,*,#295,.T.);
#297=EDGE_LOOP('',(#272,#281,#289,#296));
#298=FACE_OUTER_BOUND('',#297,.T.);
#299=ADVANCED_FACE('',(#298),#262,.F.);
#300=CARTESIAN_POINT('',(-2.100000000000001,0.0,3.750000000000000));
#301=DIRECTION('',(1.0,0.0,0.0));
#302=DIRECTION('',(0.0,0.0,-1.0));
#303=AXIS2_PLACEMENT_3D('',#300,#301,#302);
#304=PLANE('',#303);
#305=CARTESIAN_POINT('',(-2.100000000000001,0.0,0.0));
#306=DIRECTION('',(-1.0,0.0,0.0));
#307=DIRECTION('',(0.0,0.0,1.0));
#308=AXIS2_PLACEMENT_3D('',#305,#306,#307);
#309=CIRCLE('',#308,7.500000000000000);
#310=EDGE_CURVE('',#266,#283,#309,.T.);
#311=ORIENTED_EDGE('',*,*,#310,.F.);
#312=ORIENTED_EDGE('',*,*,#295,.F.);
#313=EDGE_LOOP('',(#311,#312));
#314=FACE_OUTER_BOUND('',#313,.T.);
#315=ADVANCED_FACE('',(#314),#304,.T.);
#316=CARTESIAN_POINT('',(-2.775558E-016,0.0,0.0));
#317=DIRECTION('',(-1.0,0.0,0.0));
#318=DIRECTION('',(0.0,0.0,1.0));
#319=AXIS2_PLACEMENT_3D('',#316,#317,#318);
#320=CYLINDRICAL_SURFACE('',#319,7.500000000000000);
#321=ORIENTED_EDGE('',*,*,#271,.T.);
#322=ORIENTED_EDGE('',*,*,#310,.T.);
#323=ORIENTED_EDGE('',*,*,#288,.T.);
#324=CARTESIAN_POINT('',(2.100000000000000,0.0,0.0));
#325=DIRECTION('',(-1.0,0.0,0.0));
#326=DIRECTION('',(0.0,0.0,1.0));
#327=AXIS2_PLACEMENT_3D('',#324,#325,#326);
#328=CIRCLE('',#327,7.500000000000000);
#329=EDGE_CURVE('',#264,#274,#328,.T.);
#330=ORIENTED_EDGE('',*,*,#329,.F.);
#331=EDGE_LOOP('',(#321,#322,#323,#330));
#332=FACE_OUTER_BOUND('',#331,.T.);
#333=ADVANCED_FACE('',(#332),#320,.F.);
#334=CARTESIAN_POINT('',(2.100000000000000,0.0,7.850000000000000));
#335=DIRECTION('',(1.0,0.0,0.0));
#336=DIRECTION('',(0.0,0.0,-1.0));
#337=AXIS2_PLACEMENT_3D('',#334,#335,#336);
#338=PLANE('',#337);
#339=ORIENTED_EDGE('',*,*,#246,.F.);
#340=CARTESIAN_POINT('',(2.099999999999999,0.0,0.0));
#341=DIRECTION('',(-1.0,0.0,0.0));
#342=DIRECTION('',(0.0,0.0,1.0));
#343=AXIS2_PLACEMENT_3D('',#340,#341,#342);
#344=CIRCLE('',#343,8.199999999999999);
#345=EDGE_CURVE('',#240,#232,#344,.T.);
#346=ORIENTED_EDGE('',*,*,#345,.F.);
#347=EDGE_LOOP('',(#339,#346));
#348=FACE_OUTER_BOUND('',#347,.T.);
#349=ORIENTED_EDGE('',*,*,#329,.T.);
#350=ORIENTED_EDGE('',*,*,#280,.T.);
#351=EDGE_LOOP('',(#349,#350));
#352=FACE_BOUND('',#351,.T.);
#353=ADVANCED_FACE('',(#348,#352),#338,.T.);
#354=CARTESIAN_POINT('',(1.169175359259421,0.0,0.0));
#355=DIRECTION('',(-1.0,0.0,0.0));
#356=DIRECTION('',(0.0,0.0,1.0));
#357=AXIS2_PLACEMENT_3D('',#354,#355,#356);
#358=CYLINDRICAL_SURFACE('',#357,8.199999999999999);
#359=ORIENTED_EDGE('',*,*,#237,.T.);
#360=CARTESIAN_POINT('',(0.238350718518843,0.0,0.0));
#361=DIRECTION('',(-1.0,0.0,0.0));
#362=DIRECTION('',(0.0,0.0,1.0));
#363=AXIS2_PLACEMENT_3D('',#360,#361,#362);
#364=CIRCLE('',#363,8.199999999999999);
#365=EDGE_CURVE('',#208,#200,#364,.T.);
#366=ORIENTED_EDGE('',*,*,#365,.F.);
#367=ORIENTED_EDGE('',*,*,#252,.T.);
#368=ORIENTED_EDGE('',*,*,#345,.T.);
#369=EDGE_LOOP('',(#359,#366,#367,#368));
#370=FACE_OUTER_BOUND('',#369,.T.);
#371=ADVANCED_FACE('',(#370),#358,.T.);
#372=CARTESIAN_POINT('',(0.119175359259422,0.0,0.0));
#373=DIRECTION('',(-1.0,0.0,0.0));
#374=DIRECTION('',(0.0,0.0,1.0));
#375=AXIS2_PLACEMENT_3D('',#372,#373,#374);
#376=CONICAL_SURFACE('',#375,8.300000000000001,40.000000000000028);
#377=ORIENTED_EDGE('',*,*,#205,.T.);
#378=CARTESIAN_POINT('',(0.0,0.0,0.0));
#379=DIRECTION('',(-1.0,0.0,0.0));
#380=DIRECTION('',(0.0,0.0,1.0));
#381=AXIS2_PLACEMENT_3D('',#378,#379,#380);
#382=CIRCLE('',#381,8.400000000000000);
#383=EDGE_CURVE('',#176,#168,#382,.T.);
#384=ORIENTED_EDGE('',*,*,#383,.F.);
#385=ORIENTED_EDGE('',*,*,#220,.T.);
#386=ORIENTED_EDGE('',*,*,#365,.T.);
#387=EDGE_LOOP('',(#377,#384,#385,#386));
#388=FACE_OUTER_BOUND('',#387,.T.);
#389=ADVANCED_FACE('',(#388),#376,.T.);
#390=CARTESIAN_POINT('',(-0.119175359259422,0.0,0.0));
#391=DIRECTION('',(1.0,0.0,0.0));
#392=DIRECTION('',(0.0,0.0,1.0));
#393=AXIS2_PLACEMENT_3D('',#390,#391,#392);
#394=CONICAL_SURFACE('',#393,8.300000000000001,40.000000000000028);
#395=ORIENTED_EDGE('',*,*,#173,.T.);
#396=CARTESIAN_POINT('',(-0.238350718518843,0.0,0.0));
#397=DIRECTION('',(-1.0,0.0,0.0));
#398=DIRECTION('',(0.0,0.0,1.0));
#399=AXIS2_PLACEMENT_3D('',#396,#397,#398);
#400=CIRCLE('',#399,8.199999999999999);
#401=EDGE_CURVE('',#136,#126,#400,.T.);
#402=ORIENTED_EDGE('',*,*,#401,.F.);
#403=ORIENTED_EDGE('',*,*,#188,.T.);
#404=ORIENTED_EDGE('',*,*,#383,.T.);
#405=EDGE_LOOP('',(#395,#402,#403,#404));
#406=FACE_OUTER_BOUND('',#405,.T.);
#407=ADVANCED_FACE('',(#406),#394,.T.);
#408=CARTESIAN_POINT('',(-1.169175359259422,0.0,0.0));
#409=DIRECTION('',(-1.0,0.0,0.0));
#410=DIRECTION('',(0.0,0.0,1.0));
#411=AXIS2_PLACEMENT_3D('',#408,#409,#410);
#412=CYLINDRICAL_SURFACE('',#411,8.199999999999999);
#413=ORIENTED_EDGE('',*,*,#133,.T.);
#414=CARTESIAN_POINT('',(-2.100000000000001,0.0,0.0));
#415=DIRECTION('',(-1.0,0.0,0.0));
#416=DIRECTION('',(0.0,0.0,1.0));
#417=AXIS2_PLACEMENT_3D('',#414,#415,#416);
#418=CIRCLE('',#417,8.199999999999999);
#419=EDGE_CURVE('',#145,#128,#418,.T.);
#420=ORIENTED_EDGE('',*,*,#419,.F.);
#421=ORIENTED_EDGE('',*,*,#150,.T.);
#422=ORIENTED_EDGE('',*,*,#401,.T.);
#423=EDGE_LOOP('',(#413,#420,#421,#422));
#424=FACE_OUTER_BOUND('',#423,.T.);
#425=ADVANCED_FACE('',(#424),#412,.T.);
#426=CARTESIAN_POINT('',(-2.100000000000001,0.0,9.100000000000000));
#427=DIRECTION('',(1.0,0.0,0.0));
#428=DIRECTION('',(0.0,0.0,-1.0));
#429=AXIS2_PLACEMENT_3D('',#426,#427,#428);
#430=PLANE('',#429);
#431=ORIENTED_EDGE('',*,*,#108,.F.);
#432=CARTESIAN_POINT('',(-2.100000000000001,0.0,0.0));
#433=DIRECTION('',(-1.0,0.0,0.0));
#434=DIRECTION('',(0.0,0.0,1.0));
#435=AXIS2_PLACEMENT_3D('',#432,#433,#434);
#436=CIRCLE('',#435,9.999999999999998);
#437=EDGE_CURVE('',#102,#94,#436,.T.);
#438=ORIENTED_EDGE('',*,*,#437,.F.);
#439=EDGE_LOOP('',(#431,#438));
#440=FACE_OUTER_BOUND('',#439,.T.);
#441=ORIENTED_EDGE('',*,*,#157,.T.);
#442=ORIENTED_EDGE('',*,*,#419,.T.);
#443=EDGE_LOOP('',(#441,#442));
#444=FACE_BOUND('',#443,.T.);
#445=ADVANCED_FACE('',(#440,#444),#430,.T.);
#446=CARTESIAN_POINT('',(-2.400000000000001,0.0,0.0));
#447=DIRECTION('',(-1.0,0.0,0.0));
#448=DIRECTION('',(0.0,0.0,1.0));
#449=AXIS2_PLACEMENT_3D('',#446,#447,#448);
#450=CYLINDRICAL_SURFACE('',#449,9.999999999999998);
#451=ORIENTED_EDGE('',*,*,#99,.T.);
#452=CARTESIAN_POINT('',(-2.700000000000001,0.0,0.0));
#453=DIRECTION('',(-1.0,0.0,0.0));
#454=DIRECTION('',(0.0,0.0,1.0));
#455=AXIS2_PLACEMENT_3D('',#452,#453,#454);
#456=CIRCLE('',#455,10.0);
#457=EDGE_CURVE('',#61,#50,#456,.T.);
#458=ORIENTED_EDGE('',*,*,#457,.F.);
#459=ORIENTED_EDGE('',*,*,#114,.T.);
#460=ORIENTED_EDGE('',*,*,#437,.T.);
#461=EDGE_LOOP('',(#451,#458,#459,#460));
#462=FACE_OUTER_BOUND('',#461,.T.);
#463=ADVANCED_FACE('',(#462),#450,.T.);
#464=CARTESIAN_POINT('',(-2.700000000000001,0.0,0.0));
#465=DIRECTION('',(-1.0,0.0,0.0));
#466=DIRECTION('',(0.0,0.0,1.0));
#467=AXIS2_PLACEMENT_3D('',#464,#465,#466);
#468=TOROIDAL_SURFACE('',#467,9.299999999999999,0.700000000000000);
#469=ORIENTED_EDGE('',*,*,#58,.T.);
#470=CARTESIAN_POINT('',(-3.400000000000002,0.0,0.0));
#471=DIRECTION('',(-1.0,0.0,0.0));
#472=DIRECTION('',(0.0,0.0,1.0));
#473=AXIS2_PLACEMENT_3D('',#470,#471,#472);
#474=CIRCLE('',#473,9.299999999999999);
#475=EDGE_CURVE('',#70,#52,#474,.T.);
#476=ORIENTED_EDGE('',*,*,#475,.F.);
#477=ORIENTED_EDGE('',*,*,#76,.T.);
#478=ORIENTED_EDGE('',*,*,#457,.T.);
#479=EDGE_LOOP('',(#469,#476,#477,#478));
#480=FACE_OUTER_BOUND('',#479,.T.);
#481=ADVANCED_FACE('',(#480),#468,.T.);
#482=CARTESIAN_POINT('',(-3.400000000000003,0.0,4.650000000000000));
#483=DIRECTION('',(-1.0,0.0,0.0));
#484=DIRECTION('',(0.0,0.0,1.0));
#485=AXIS2_PLACEMENT_3D('',#482,#483,#484);
#486=PLANE('',#485);
#487=ORIENTED_EDGE('',*,*,#83,.T.);
#488=ORIENTED_EDGE('',*,*,#475,.T.);
#489=EDGE_LOOP('',(#487,#488));
#490=FACE_OUTER_BOUND('',#489,.T.);
#491=ADVANCED_FACE('',(#490),#486,.T.);
#492=CLOSED_SHELL('',(#87,#119,#161,#193,#225,#257,#299,#315,#333,#353,#371,#389,#407,#425,#445,#463,#481,#491));
#493=MANIFOLD_SOLID_BREP('',#492);
#494=DRAUGHTING_PRE_DEFINED_COLOUR('white');
#495=FILL_AREA_STYLE_COLOUR('Plastik (weiß)',#494);
#496=FILL_AREA_STYLE('Plastik (weiß)',(#495));
#497=SURFACE_STYLE_FILL_AREA(#496);
#498=SURFACE_SIDE_STYLE('Plastik (weiß)',(#497));
#499=SURFACE_STYLE_USAGE(.BOTH.,#498);
#500=PRESENTATION_STYLE_ASSIGNMENT((#499));
#501=STYLED_ITEM('',(#500),#493);
#502=MECHANICAL_DESIGN_GEOMETRIC_PRESENTATION_REPRESENTATION('',(#501),#36);
#503=ADVANCED_BREP_SHAPE_REPRESENTATION('ABSR',(#493),#36);
#504=SHAPE_REPRESENTATION_RELATIONSHIP('SRR','None',#503,#41);
ENDSEC;
END-ISO-10303-21;
